СООБЩЕСТВО КУБАНСКИХ КУЗЬМИЧЕЙ: Orange - Просмотр профиля

Перейти к содержимому

 

Добро пожаловать в СООБЩЕСТВО КУБАНСКИХ КУЗЬМИЧЕЙ

Добро пожаловать!

Вы в гостях у Сообщества Кубанских Кузьмичей. Это форум людей, которых сплотила любовь к футбольному клубу КУБАНЬ! Мы создали наше сообщество для комфортного online общения на тему футбола, а так же по мере сил освещаем события нашей любимой команды КУБАНЬ.

Тут вы можете найти интересное общение, поговорить на различные темы об футбольном клубе "КУБАНЬ", о футболе в принципе и о спорте в общем.

Чтобы стать участником форума, Вам необходимо ознакомится с правилами, пройти регистрацию или войти под своим логином, если вы уже зарегистрированы.

Orange Профиль Рейтинг: -----

Репутация: 0 Рядовой Кузьмич
Группа:
Пользователи
Сообщений:
0 (0 в день)
Регистрация:
17 Февраль 15
Просмотров:
4 651
Активность:
Пользователь офлайн 17 фев 2015 16:12
Сейчас:
Оффлайн

Старые поля

Статус:
Просто болельщик
Болею за:
Кубань
Стаж боления:
Не помню
Выезды:
Не считал

Иконка Последняя репутация

0

Текущая репутация


  • У вас нет изменений в репутации.
Иконка   Orange не установил(а) свой статус

Обо мне

Итак, еще один, не менее важный, момент - это умение читать табулатуры (табы).

Что же такое собственно табулатура?

Табулатура - это форма музыкальной нотации, которая оперирует рабочими элементами музыкального инструмента (в случае гитары покупка - это струны и лады)

Для записи в табулатуре используются буквы, цифры, и специальные символы. Вообще, гитарные табулатуры напоминают музыкальное произведение, разница в том, что в нотной записи 5 линий, а в табулатуре 6. Они символизируют 6 струн гитары, где нижняя линия - самая низкая (толстая) струна, а верхняя, соответственно, сама высокая (тончайшая ) струна.

Вот так выглядит табулатура

E -------------------------- ------------ 1-я струна, тонкая

B -------------------------- ------------ 2-я струна,

G -------------------------- ------------ 3-я,

D -------------------------- ------------ 4-,

A -------------------------- ------------ 5-,

E -------------------------- ------------ 6-, толстый.

Цифры, которые размещаются на линиях, означают номер строя, на котором нужно прижать струну. Так цифра 1 - это первый лад, 2 - второй и т.д.

Открытые (не прижаты) струны обозначаются нулем (0).

Если струна не должна звучать вообще, при исполнении, то она обозначается "Х".

Так, например, если нужно сыграть первую струну один раз на втором строя, то в табулатуре это будет обозначено так:

E ---- 2 -------------------------- ------

B -------------------------- ------------

G -------------------------- ------------

D -------------------------- ------------

A -------------------------- ------------

E -------------------------- ------------

Рассмотрим теперь табы разных нот на разных струнах.

Итак, если нам нужно сыграть по-порядку несколько нот на разных струнах (например начиная с верхней струны и заканчивая нижней, то в табах это будет изображено так:

E------------------------- --------------------------- --------------------------- ------------------------0-- ----2------3-|

B------------------------- --------------------------- --------------------------- ---0---1-----3------------- -------------|

G------------------------- --------------------------- ----------0-----2----3----- --------------------------- -------------|

D------------------------- ----------------0-----2---- -3------------------------- --------------------------- -------------|

A---------------------0--- --2----3------------------- --------------------------- --------------------------- -------------|

E-0----1-----3------------ --------------------------- --------------------------- --------------------------- -------------|

Теперь рассмотрим, как будет выглядеть табулатура аккорда, например ля минор (Am)

E ---------- 0 -------------------------- -------

B ---------- 1 -------------------------- -------

G ---------- 2 -------------------------- -------

D ---------- 2 -------------------------- ------

A ---------- 0 -------------------------- -------

E ---------- х -------------------------- -------

На табулатуре выше указано, что аккорд Аm (див.основни аккорды) играет оды раз.

Если аккорд играет более одного раза (например четыре раза), то на табулатуре он будет выглядеть следующим образом:

E ---------- 0 ------- 0 ------- 0 --------- 0 ----------

B ---------- 1 -------- 1 ------- 1 -------- 1 ----------

G ---------- 2 -------- 2 ------- 2 -------- 2 ----------

D ---------- 2 -------- 2 ------- 2 -------- 2 --------

A ---------- 0 -------- 0 ------- 0 -------- 0 ---------

E ---------- х -------- х -------- х --------- х ---------

Далее давайте остановимся на некоторых обозначениях, которые вам могут встретиться в табах.

b = Bend - подтяжка струны. То есть такое обозначение означает движение, прижать к грифу струны, поперек грифа. Во время такого движения высота звучания ноты плавно меняется и становится выше.

r = Release bend - значит отпустить подтяжку.

h = Hummer-on - значит удар пальцем левой руки по струне на определенном ладу. На табулатуре сказывается на английском "h", например: --2h3-- это означает, что одним пальцем (скажем указательным) мы зажимаем струну на втором ладу, играем данную струну правой рукой, а средним пальцем левой руки ударяем по струне на третьем толком не убирая палец.

p = Pull off - это дерганье струны, пальцем левой руки. Если при выполнении h = Hummer-on мы ударяли по струне, то теперь мы дергаем за струну.

Иногда h = Hummer-on и p = Pull off сочетаются (сначала струна прибивается, а затем дергается, или наоборот.)

s = Slide up - в переводе с английского - скольжение. Например обозначение --2s5-- означает, что нужно зажать струну на втором ладу, извлечь ноту правой рукой, и не отпуская палец левой руки, провести им до пятого порядка, тем самым добыв вторую ноту, но уже без участия правой руки. Может быть и наоборот --5s2-- тогда нужно скользить пальцем от пятого порядка к другому.

PM = Palm mute -приглушення струны. Реализуется прикосновением ребра ладони к струнам, тем самым создавая эффект подавления струн.

T = Tap - Теппинг - это техника игры, когда звук извлекается с помощью легких ударов по струнам на грифе с помощью правой руки (можно сказать puul-off / hummer-on в исполнение правой).

В принципе это не все обозначения, однако для начала их будет более чем достаточно.

Всем успехов!

И к следующим уроков ...

Информация

Статус:
Новичок
Возраст:
Неизвестен
День рождения:
Неизвестен
Пол:

Контактная информация

E-mail:
Скрыто
Сайт:
Сайт  http://orangemusic.com.ua/21/купить-гитары-и-гитарное-оборудование-украина

Друзья

Orange еще не добавил друзей

Комментарии

Orange не имеет еще комментариев. Почему бы не написать Привет?